Tablatura para guitarra del Himno de Riego

    Comparte

    Revolucion94
    Novato/a rojo/a
    Novato/a rojo/a

    Cantidad de envíos : 3
    Reputación : 12
    Fecha de inscripción : 07/12/2012

    Tablatura para guitarra del Himno de Riego

    Mensaje por Revolucion94 el Vie Jun 06, 2014 8:13 pm

    Bueno, puesto que no he encontrado por Internet ninguna tablatura para guitarra o bajo de esta canción, ni de cualquier otra de estilo revolucionario o comunista, me he calentado la cabeza y la he sacado de oído para todo aquel que desee aprender a tocarla. Próximamente subiré alguna más como la internacional, la joven guardia, himno de la RDA, etc. Si os costase pillarle la velocidad o el ritmo solo tenéis que decirlo y hago un vídeo que no me cuesta nada. Salud y República.

    http://r12.imgfast.net/users/1211/14/95/67/smiles/759408.gif




    E---------------------------
    B---------------------------
    G---------------------------
    D------4---44---------------
    A----0----------7---55--4--
    E----------------------------

    E-----------------------------
    B-----------------------------
    G----------------------------
    D------5---55-4-5-7---4------
    A----0-----------------------5-
    E-----------------------------

    E----------------------------
    B---------------------------
    G----------------------------
    D------4---44---------------
    A----0----------7---55---4--
    E--------------------------

    E------------------------------
    B-------------------------------
    G----------4---------------------
    D----777-----7-5-4--------------
    A----------------------7-5-----
    E-------------------------------

    E-----------------------------------------------------------------
    B-------------------------------------------------------------------
    G-----------------4---44-------------------------------------------
    D---------4-5-7------------7-5-7---77-5-4-5---55-4-7---4---------
    A---5-7-----------------------------------------------------------5-
    E-------------------------------------------------------------------

    E-------------------------------------------------------
    B----------------------------------------------------------
    G-------4---44-------------------------4------------------
    D------------------7-5-7---77-5-4-7-----7-5-4---------
    A---5-------------------------------------------------7-5-
    E-----------------------------------------------------------

    E----------------------------------------------
    B----------------------------------------------
    G-----------------2-4-------4-2-------------2-
    D---4-2---4-5--------5----------5-4---2-------
    A--------------------------------------------
    E--------------------------------------------


    E-------------------------------------------
    B-------------------------------------------
    G----------------2-4-----4-2-4-2------------
    D---4-2---4-5-------5--------------5-4-2-0-
    A--------------------------------------------
    E-------------------------------------------

      Fecha y hora actual: Dom Dic 11, 2016 5:08 am