[Tablatura para guitarra] Himno de la Unión Soviética

    Comparte

    neweconomic
    Revolucionario/a
    Revolucionario/a

    Cantidad de envíos : 1143
    Reputación : 2252
    Fecha de inscripción : 17/04/2010

    [Tablatura para guitarra] Himno de la Unión Soviética

    Mensaje por neweconomic el Dom Ene 20, 2013 8:56 pm

    C Em F C
    E|-------------|-------------|-------------|-------------|-------------|
    B|-------------|-1-----------|-0-----------|-------------|-------------|
    G|----------0--|-------0---2-|-------------|-2-----0-----|-0-----------|
    D|-------------|-------------|-------2--2--|-----------3-|-------------|
    A|-------------|-3-----------|-------------|-------------|-3-----3--3--|
    E|-------------|-------------|-0-----------|-1-----------|-------------|

    Dm D/C G
    E|-1-----------|-------------|-------------|-------------|
    B|-3-----------|-------------|-------0--1--|-3-----------|
    G|-2-----------|----------0--|-2-----------|----------0--|
    D|-0-----0--2--|-3-----3-----|-------------|-------------|
    A|-------------|-3-----------|-3-----------|-------------|
    E|-------------|-------------|-------------|-3-----------|

    C G Am Em
    E|-0-----------|-------------|-------------|-------------|
    B|-------3---1-|-3-----0-----|-1-----0-----|-0-----------|
    G|-------------|----------0--|-----------2-|-------------|
    D|-------------|-------------|-------------|-------2--2--|
    A|-3-----------|-------------|-0-----------|-------------|
    E|-------------|-3-----------|-------------|-0-----------|

    F C D7 G
    E|-------------|-------------|-------------|-------------|
    B|-------------|-------------|-1-----0-----|-------------|
    G|-2-----0-----|-0-----------|-----------2-|-0-----------|
    D|----------3--|-------------|-0-----------|-------------|
    A|-------------|-3-----3--3--|-------------|-------------|
    E|-1-----------|-------------|-------------|-3-----------|


    C G
    E|-0-----------|-------------|-------------|-------------|
    B|-------------|-3--1--0--1--|-3-----0-----|-------------|
    G|-------------|-------------|----------0--|-0-----------|
    D|-------------|-------------|-------------|-------------|
    A|-3-----------|-------------|-------------|-------------|
    E|-------------|-3-----------|-3-----------|-------------|

    Am Em
    E|-------------|-------------|-------------|-------------|
    B|-1-----------|-0-----------|-0-----------|-------------|
    G|-------------|----2--0--2--|-------------|-------------|
    D|-------------|-------------|----------2--|-2-----------|
    A|-0-----------|-------------|-------------|-------------|
    E|-------------|-0-----------|-------------|-------------|

    F
    E|-------------|-------------|-------------|-1-----------|
    B|-1---------0-|-1---------0-|-1--------1--|-------------|
    G|-------2-----|-------2-----|-------2-----|-------------|
    D|-------------|-------------|-------------|-------------|
    A|-------------|-------------|-------------|-------------|
    E|-1-----------|-------------|-------------|-1-----------|

    Dm G C
    E|-1-----------|-0-----------|-0-----------|-------------|
    B|-------------|----3--1--3--|----------1--|-1-----------|
    G|-------------|-------------|-------------|-------------|
    D|-0-----------|-------------|-------------|-------------|
    A|-------------|-------------|-3-----------|-------------|
    E|-------------|-3-----------|-------------|-------------|

    Dm E Am
    E|-------------|-------------|-------------|-------------|
    B|-3-----------|-1--0-----0--|-1-----------|-------------|
    G|-------------|-------2-----|----------2--|-2-----------|
    D|-0-----------|-------------|-------------|-------------|
    A|-------------|-------------|-0-----------|-------------|
    E|-------------|-0-----------|-------------|-------------|

    F C D7 G
    E|-------------|-------------|-------------|-------------|
    B|-1-----0-----|-------------|-1-----0-----|-------------|
    G|----------2--|-0-----------|----------2--|-0--------0--|
    D|-------------|-------------|-0-----------|-------------|
    A|-------------|-3-----3---3-|-------------|-------------|
    E|-1-----------|-------------|-------------|-3-----------|

    neweconomic
    Revolucionario/a
    Revolucionario/a

    Cantidad de envíos : 1143
    Reputación : 2252
    Fecha de inscripción : 17/04/2010

    Re: [Tablatura para guitarra] Himno de la Unión Soviética

    Mensaje por neweconomic el Dom Ene 20, 2013 9:13 pm

    Nada he intento ajustarlo pero no sale.

    Tripero
    Moderador de Reserva
    Moderador de Reserva

    Cantidad de envíos : 871
    Reputación : 1080
    Fecha de inscripción : 04/01/2013
    Localización : Sudamérica

    Re: [Tablatura para guitarra] Himno de la Unión Soviética

    Mensaje por Tripero el Miér Sep 11, 2013 6:14 am

    Alguien sabria donde podría estar esta tablatura para bajo? Gracias!


    ------------------------------
    "Está claro, me parece, que los clamores contra el famoso burocratismo no son más que un medio de encubrir el descontento por la composición de los organismos centrales, no son más que una hoja de parra... ¡Eres un burócrata, porque has sido designado por el Congreso sin mi voluntad y contra ella! Eres un formalista, porque te apoyas los acuerdos formales del Congreso, y no en mi consentimiento. Obras de un modo brutalmente mecánico, porque te remites a la mayoría "mecánica" del Congreso del Partido y no prestas atención a mi deseo de ser cooptado. Eres un autócrata, porque no quieres poner el poder en manos de la vieja tertulia de buenos compadres!"

    Ifkeys
    Revolucionario/a
    Revolucionario/a

    Cantidad de envíos : 903
    Reputación : 1102
    Fecha de inscripción : 31/05/2014
    Edad : 21
    Localización : Galiza, fogar de Breogán.

    Re: [Tablatura para guitarra] Himno de la Unión Soviética

    Mensaje por Ifkeys el Dom Nov 16, 2014 9:17 pm

    http://www.songsterr.com/a/wsa/misc-traditional-ussr-national-anthem-tab-s44417t0

    Aquí tenéis una buena versión, que se puede reproducir a la vez y aprender a tocarla mejor!
    Tiene varios instrumentos, con lo que podrás sacar la tab del bajo Very Happy

    Tripero
    Moderador de Reserva
    Moderador de Reserva

    Cantidad de envíos : 871
    Reputación : 1080
    Fecha de inscripción : 04/01/2013
    Localización : Sudamérica

    Re: [Tablatura para guitarra] Himno de la Unión Soviética

    Mensaje por Tripero el Dom Nov 16, 2014 11:24 pm

    Ifkeys escribió:http://www.songsterr.com/a/wsa/misc-traditional-ussr-national-anthem-tab-s44417t0

    Aquí tenéis una buena versión, que se puede reproducir a la vez y aprender a tocarla mejor!
    Tiene varios instrumentos, con lo que podrás sacar la tab del bajo Very Happy

    Agradecido, compañero.... 

    Saludos


    ------------------------------
    "Está claro, me parece, que los clamores contra el famoso burocratismo no son más que un medio de encubrir el descontento por la composición de los organismos centrales, no son más que una hoja de parra... ¡Eres un burócrata, porque has sido designado por el Congreso sin mi voluntad y contra ella! Eres un formalista, porque te apoyas los acuerdos formales del Congreso, y no en mi consentimiento. Obras de un modo brutalmente mecánico, porque te remites a la mayoría "mecánica" del Congreso del Partido y no prestas atención a mi deseo de ser cooptado. Eres un autócrata, porque no quieres poner el poder en manos de la vieja tertulia de buenos compadres!"

    Contenido patrocinado

    Re: [Tablatura para guitarra] Himno de la Unión Soviética

    Mensaje por Contenido patrocinado Hoy a las 7:07 am


      Fecha y hora actual: Dom Dic 04, 2016 7:07 am